Аккорды Klaxons - Atlantis to Interzone

Добавлено: @romashka
Дата добавления: 30 Апреля 2018г.
Рейтинг:
0.0
Просмотров: 21
Транспонировать - +
Intro
Part 1
G|----------------------------------------------------------------------|
D|--------------------14------------------------------------------------|
A|--12-12-12-12/15-17-------8-8-8-8-10-7--------------------------------| x2
E|----------------------------------------------------------------------|

Intro Part 2 and Ending
G|----------------------------------------------------------------------|
D|----------------------------------------------------------------------|
A|--11-11-11-11-11-10-10-10-10-10---------------------------------------| x2
E|----------------------------------------------------------------------|

Play this x2

Verse
G|----------------------------------------------------------------------|
D|----------------------------------------------------------------------| x2
A|--12-12-12-12-15--8-8-8-8-7-------------------------------------------|
E|----------------------------------------------------------------------|

Intro parts 1+2

Chorus - not sure this is right as its hard to hear it
G|----------------------------------------------------------------------|
D|----------------------------------------------------------------------|
A|--12-12-12-12-15--10-8-10-8-------------------------------------------|
E|----------------------------------------------------------------------|

Intro Part 2 acts as a bridge
comments powered by Disqus
Наверх