Аккорды Алёша Митюшкин - Аквилон

Добавлено: @romashka
Дата добавления: 13 Августа 2019г.
Рейтинг:
0.0
Просмотров: 11
Транспонировать - +
Проигрыш:
E||-----------0------|------------------|-----------------|
B||----------------2-|-----------0------|---------------2-|
G||------1-----------|----------------1-|----------2------|
D||-2----------------|------1-----------|-----2-----------|
A||------------------|-2----------------|-0---------------|
E||------------------|------------------|-----------------|

E------------------|-----------0------|------------------|
B-----------3----1-|----------------2-|-----------0------|
G-2----------------|------1-----------|----------------1-|
D------2-----------|-2----------------|------1-----------|
A------------------|------------------|-2----------------|
E------------------|------------------|------------------|
                                 
E-----------0------|------0-----------|
B----------------2-|-2---------4----2-|
G------------------|------------------|
D------3-----------|------------------|
A-4----------------|------------------|
E------------------|------------------|

E                 B
Зачем ты, грозный аквилон,
A
Тростник прибрежный долу клонишь?
E                 B
Зачем на дальний небосклон
C#                 D#
Ты облачко столь гневно гонишь?

E5              B5
Недавно чёрных туч грядой
A               A5
Свод неба глухо облекался,
E                B     
Недавно дуб над высотой
C#                 D#
В красе надменной величался…

E                B
Но ты поднялся, ты взыграл,
A
Ты прошумел грозой и славой —
E5              B5
И бурны тучи разогнал,
C#5               D#5
И дуб низвергнул величавый.

Соло:
E-3----3----12----12--|
B-5----5----10----10b-|
G---------------------|
D---------------------|
A---------------------|
E---------------------|
             
E-------------14----14--|------|
B--0-----0----12----12b-|------|
G-----------------------|------|
D-12----12--------------|-7----|
A-----------------------|-7----|
E-----------------------|-5----|
    
E------------------|-3----3----12----12--|
B------5-----------|-5----5----10----10b-|
G-----------4----2-|---------------------|
D-7--------------2-|---------------------|
A----------------0-|---------------------|
E------------------|---------------------|
            
E-------------14----14--|--0---|
B--0-----0----12----12b-|--9---|
G-----------------------|------|
D-12----12--------------|-11---|
A-----------------------|-11---|
E-----------------------|--9---|
                      
E-6----|
B-7----|
G-8----|
D-8----|
A-6----|
E------|

E5                B5
Пускай же солнца ясный лик
A5                 A
Отныне радостью блистает,
E             B
И облачком зефир играет,
C#                D#
И тихо зыблется тростник.
comments powered by Disqus
Наверх