Аккорды Алёша Митюшкин - Приходить к тебе

Добавлено: @romashka
Дата добавления: 13 Августа 2019г.
Рейтинг:
0.0
Просмотров: 7
Транспонировать - +
Проигрыш:  
E||-------1-----3-----5----|-------1-----3-----0----|
B||----3-----3-----3-----3-|----3-----3-----3-----3-|
G||----------------------5-|----------------------5-|
D||------------------------|-0----------------------|
A||-5----------------------|------------------------|
E||------------------------|------------------------|
  
E--------------0----------|-------------------------|
B-------0s--1-----0--3--0-|-------1--0S--3--0--1----|
G----2--------------------|----2------------------2-|
D-------------------------|-------------------------|
A-0-----------------------|-------------------------|
F-------------------------|-3-----------------------|

D              G
Приходить к тебе,
D      A  D
Чтоб снова
D 
Просто
       G     D
Вслушиваться в
F  D
Голос;
A             E B
И сидеть на стуле,
D    B
Сгорбясь,
G         D    B
И не говорить ни
C    A
Слова.

D C# C A  E

E5
Приходить,
Bm
Стучаться в двери,
A5          C  
Замирая, ждать
B  C  B
Ответа...
E          F#
Если ты узнаешь это,
C              A#
То, наверно, не поверишь...

D              G
Приходить к тебе,
D      A  D
Чтоб снова
D 
Просто
       G     D
Вслушиваться в
F  D
Голос;
A             E  B
и сидеть на стуле,
D    B
Сгорбясь,
G         D    B
И не говорить ни
C    A
Слова.

D C# C A  E

E   
То, конечно,
B
Захохочешь,
A
Скажешь:
         C B
"Это ж глупо
C   B
Очень..."
E
Скажешь:
        F#
"Тоже мне - влюбленный!"-
C
И посмотришь
A#
Удивленно,

D              G
Приходить к тебе,
D      A  D
Чтоб снова
D 
Просто
       G     D
Вслушиваться в
F  D
Голос;
A             E  B
И сидеть на стуле,
D    B
Сгорбясь,
G         D    B
И не говорить ни
C    A
Слова.

Соло:
E-------------------|-------------------|------------------------|
B-------------------|-------------------|-- S--------2-----------|
G-------------------|-------------------|----------------1--2--1-|
D-------------------|-------------------|------------------------|
A-0S----------------|-------------------|------------------------|
E-------------------|--3----------------|------------------------|
   
E|--------------0--1-----|--------------2--7--7b-|
B|-/1-----------------3--|-----------0-----------|
G|-----------2-----------|-----------------------|
D|-----------------------|--2--------------------|
A|-----------------------|-----------------------|
E|-----------------------|-----------------------|
   
E----------------------|----------------------|
B----------------------|--------------7-----7-|
G----------------------|-----------6-----6----|
D-7--------------------|----------------------|
A----------------------|--7-------------------|
E----------8--7--8--7--|----------------------|
    
E----------------------|--0--------7--14--19--19b-|
B----------------------|--------------------------|
G-5--------3--2--3--2--|--------------------------|
D----------------------|--------------------------|
A----------------------|--------------------------|
E----------------------|--------------------------|

E---------------------------|---------------------------|
B---------------------------|----------------19------19-|
G---------------------------|------------18------18-----|
D-19------------------------|---------------------------|
A---------------------------|--19-----------------------|
E-----------20--19--20--19--|---------------------------|
             
E---------------------------|-------------------|-------------------|
B---------------------------|-------------------|-------------------|
G-17--------15--14--15--14--|--0----------------|--2----------------|
D---------------------------|-------------------|--0----------------|
A---------------------------|-------------------|-------------------|
E---------------------------|--8----------------|-------------------|

E5       B5
И не усидишь на месте.
A5             C5 B5
Будет смех звенеть
C5 B5
Рекою...

E  
Ну и ладно.
F#
Ну и смейся.
C          A#
Я люблю тебя
A   A# A
Такою.

D              G
Приходить к тебе,
D      A D
Чтоб снова
D 
Просто
       G     D
Вслушиваться в
F  D
Голос;
A             E B
И сидеть на стуле,
D    B
Сгорбясь,
G         D    B
И не говорить ни
C   A
Слова.

G         D    B
И не говорить ни
C   A
Слова.
comments powered by Disqus
Наверх