Аккорды Алёша Митюшкин - Слеза

Добавлено: @romashka
Дата добавления: 13 Августа 2019г.
Рейтинг:
0.0
Просмотров: 9
Транспонировать - +
Проигрыш:
D||------2-------2-----0-|------0-------0-----0-|
A||-3---------3-----3----|-2---------2-----2----|
E||----------------------|----------------------|

D----------------------|----------------------|
A------2-------2-----0-|------0-------0--2--0-|
E-3---------3-----3----|-2---------2----------|

D------2-------2-----0-|------0-------0-----0-|
A-3---------3-----3----|-2---------2-----2----|
E----------------------|----------------------|

D----------------------|----------------------|
A------2-------2-----0-|------0-------0-----0-|
E-3---------3-----3----|-2---------2-----0----|

C5
Вчера за чашей пуншевою
B5
С гусаром я сидел
G5
И молча с мрачною душою
F#5
На дальний путь глядел.

C
«Скажи, что смотришь на дорогу? —
B
Гусар мой вопросил. —
G
Еще по ней ты, слава богу,
F#
Друзей не проводил».

C                        
«Оставь, гусар... ох! сердцу больно.
B
Ты, знать, не горевал.
D              C#
Увы! одной слезы довольно,
G         F#
Чтоб отравить бокал!..»

C5
К груди поникнув головою,
B5
Я скоро прошептал:
G5
«Гусар! уж нет ее со мною!..»
F#5
Вздохнул — и замолчал.

C                        
«Оставь, гусар... ох! сердцу больно.
B
Ты, знать, не горевал.
D              C#
Увы! одной слезы довольно,
G         F#
Чтоб отравить бокал!..»

Соло:
e|------8----------8----|
B|------8-------8-----8-|
G|-5---------5----------|
D|----------------------|

e------7----------7----|------3----------3----|
B------7----0--7-----7-|------3-------3-----3-|
G----------------------|-0---------0----------|
D-9--------------------|----------------------|
                   
e------2----------2----|
B------2-------2-----2-|
G----------------------|
D-4---------4----------|

C
Слеза повисла на реснице
B
И канула в бокал.
G
«Дитя! ты плачешь о девице,
F#
Стыдись!» — он закричал.

C                        
«Оставь, гусар... ох! сердцу больно.
B
Ты, знать, не горевал.
D              C#
Увы! одной слезы довольно,
G         F#
Чтоб отравить бокал!..»
comments powered by Disqus
Наверх